ISO-10303-21;
HEADER;
FILE_DESCRIPTION (( 'STEP AP214' ),
    '1' );
FILE_NAME ('CB80C_STP_V10522.STEP',
    '2022-05-16T11:45:18',
    ( '' ),
    ( '' ),
    'SwSTEP 2.0',
    'SolidWorks 2022',
    '' );
FILE_SCHEMA (( 'AUTOMOTIVE_DESIGN' ));
ENDSEC;

DATA;
#1 = PRODUCT_DEFINITION_FORMATION_WITH_SPECIFIED_SOURCE ( 'ANY', '', #70, .NOT_KNOWN. ) ;
#2 = ORIENTED_EDGE ( 'NONE', *, *, #166, .T. ) ;
#3 = ADVANCED_BREP_SHAPE_REPRESENTATION ( 'CB80C_STP_V10522', ( #213, #305 ), #129 ) ;
#4 = CARTESIAN_POINT ( 'NONE',  ( -357.5000000000000000, 0.000000000000000000, 185.0000000000000000 ) ) ;
#5 = ORIENTED_EDGE ( 'NONE', *, *, #143, .F. ) ;
#6 = ADVANCED_FACE ( 'NONE', ( #11 ), #131, .F. ) ;
#7 = SURFACE_STYLE_FILL_AREA ( #158 ) ;
#8 = ORIENTED_EDGE ( 'NONE', *, *, #336, .T. ) ;
#9 =( GEOMETRIC_REPRESENTATION_CONTEXT ( 3 ) GLOBAL_UNCERTAINTY_ASSIGNED_CONTEXT ( ( #253 ) ) GLOBAL_UNIT_ASSIGNED_CONTEXT ( ( #373, #377, #263 ) ) REPRESENTATION_CONTEXT ( 'NONE', 'WORKASPACE' ) );
#10 = ORIENTED_EDGE ( 'NONE', *, *, #84, .T. ) ;
#11 = FACE_OUTER_BOUND ( 'NONE', #254, .T. ) ;
#12 = PLANE ( 'NONE',  #349 ) ;
#13 = ADVANCED_FACE ( 'NONE', ( #257 ), #351, .F. ) ;
#14 = ORIENTED_EDGE ( 'NONE', *, *, #166, .F. ) ;
#15 = DIRECTION ( 'NONE',  ( 0.000000000000000000, -1.000000000000000000, 0.000000000000000000 ) ) ;
#16 = DIRECTION ( 'NONE',  ( 0.000000000000000000, -1.000000000000000000, 0.000000000000000000 ) ) ;
#17 = AXIS2_PLACEMENT_3D ( 'NONE', #382, #355, #106 ) ;
#18 = LINE ( 'NONE', #227, #265 ) ;
#19 = CYLINDRICAL_SURFACE ( 'NONE', #144, 44.99999999999998579 ) ;
#20 = LINE ( 'NONE', #259, #299 ) ;
#21 = DIRECTION ( 'NONE',  ( 0.000000000000000000, 0.7071067811865474617, -0.7071067811865474617 ) ) ;
#22 = LINE ( 'NONE', #134, #121 ) ;
#23 = FACE_OUTER_BOUND ( 'NONE', #344, .T. ) ;
#24 = AXIS2_PLACEMENT_3D ( 'NONE', #289, #384, #295 ) ;
#25 = DIRECTION ( 'NONE',  ( 0.000000000000000000, -1.000000000000000000, 0.000000000000000000 ) ) ;
#26 = VERTEX_POINT ( 'NONE', #148 ) ;
#27 = EDGE_CURVE ( 'NONE', #247, #52, #80, .T. ) ;
#28 = APPLICATION_CONTEXT ( 'automotive_design' ) ;
#29 = DIRECTION ( 'NONE',  ( -1.000000000000000000, 0.000000000000000000, 0.000000000000000000 ) ) ;
#30 = AXIS2_PLACEMENT_3D ( 'NONE', #137, #16, #228 ) ;
#31 = DIRECTION ( 'NONE',  ( 0.000000000000000000, -0.7071067811865475727, -0.7071067811865475727 ) ) ;
#32 = ADVANCED_FACE ( 'NONE', ( #290 ), #141, .F. ) ;
#33 = LINE ( 'NONE', #275, #255 ) ;
#34 = VECTOR ( 'NONE', #171, 1000.000000000000114 ) ;
#35 = ORIENTED_EDGE ( 'NONE', *, *, #64, .T. ) ;
#36 = EDGE_LOOP ( 'NONE', ( #88, #348, #331, #316, #219, #288 ) ) ;
#37 = EDGE_LOOP ( 'NONE', ( #297, #376, #157, #328 ) ) ;
#38 = CLOSED_SHELL ( 'NONE', ( #6, #276, #200, #99, #13, #150, #74, #327, #246, #298, #182, #32, #155 ) ) ;
#39 = ORIENTED_EDGE ( 'NONE', *, *, #308, .T. ) ;
#40 = VERTEX_POINT ( 'NONE', #115 ) ;
#41 = LINE ( 'NONE', #380, #291 ) ;
#42 = LINE ( 'NONE', #54, #169 ) ;
#43 = PLANE ( 'NONE',  #24 ) ;
#44 = PRODUCT_RELATED_PRODUCT_CATEGORY ( 'part', '', ( #70 ) ) ;
#45 = DIRECTION ( 'NONE',  ( 0.000000000000000000, 1.000000000000000000, 0.000000000000000000 ) ) ;
#46 = AXIS2_PLACEMENT_3D ( 'NONE', #73, #15, #68 ) ;
#47 = CARTESIAN_POINT ( 'NONE',  ( 402.5000000000000000, 20.00000000000000000, 230.0000000000000000 ) ) ;
#48 = PRODUCT_DEFINITION_SHAPE ( 'NONE', 'NONE',  #223 ) ;
#49 = DIRECTION ( 'NONE',  ( 0.000000000000000000, -1.000000000000000000, 0.000000000000000000 ) ) ;
#50 = CARTESIAN_POINT ( 'NONE',  ( 402.5000000000000000, 20.00000000000000000, 185.0000000000000000 ) ) ;
#51 = CARTESIAN_POINT ( 'NONE',  ( -402.5000000000000000, 0.000000000000000000, 185.0000000000000000 ) ) ;
#52 = VERTEX_POINT ( 'NONE', #234 ) ;
#53 = SURFACE_STYLE_USAGE ( .BOTH. , #394 ) ;
#54 = CARTESIAN_POINT ( 'NONE',  ( 402.5000000000000000, 25.00000000000000000, -230.0000000000000000 ) ) ;
#55 = COLOUR_RGB ( '',0.7921568627450980005, 0.8196078431372548767, 0.9333333333333333481 ) ;
#56 = EDGE_CURVE ( 'NONE', #147, #40, #172, .T. ) ;
#57 = APPLICATION_PROTOCOL_DEFINITION ( 'draft international standard', 'automotive_design', 1998, #153 ) ;
#58 = CARTESIAN_POINT ( 'NONE',  ( -402.5000000000000000, 25.00000000000000000, 230.0000000000000000 ) ) ;
#59 = CIRCLE ( 'NONE', #389, 40.00000000000000711 ) ;
#60 = PRESENTATION_STYLE_ASSIGNMENT (( #53 ) ) ;
#61 = EDGE_LOOP ( 'NONE', ( #214, #81, #251, #66 ) ) ;
#62 = EDGE_LOOP ( 'NONE', ( #390, #14, #279, #98 ) ) ;
#63 = SURFACE_SIDE_STYLE ('',( #7 ) ) ;
#64 = EDGE_CURVE ( 'NONE', #216, #26, #42, .T. ) ;
#65 = ORIENTED_EDGE ( 'NONE', *, *, #397, .T. ) ;
#66 = ORIENTED_EDGE ( 'NONE', *, *, #341, .F. ) ;
#67 = ORIENTED_EDGE ( 'NONE', *, *, #268, .F. ) ;
#68 = DIRECTION ( 'NONE',  ( 0.000000000000000000, 0.000000000000000000, -1.000000000000000000 ) ) ;
#69 = ORIENTED_EDGE ( 'NONE', *, *, #320, .F. ) ;
#70 = PRODUCT ( 'CB80C_STP_V10522', 'CB80C_STP_V10522', '', ( #235 ) ) ;
#71 = CARTESIAN_POINT ( 'NONE',  ( -357.5000000000000000, 25.00000000000000000, 185.0000000000000000 ) ) ;
#72 = CARTESIAN_POINT ( 'NONE',  ( 357.5000000000000000, 20.00000000000000000, 230.0000000000000000 ) ) ;
#73 = CARTESIAN_POINT ( 'NONE',  ( 357.5000000000000000, 0.000000000000000000, 185.0000000000000000 ) ) ;
#74 = ADVANCED_FACE ( 'NONE', ( #294 ), #362, .T. ) ;
#75 = CARTESIAN_POINT ( 'NONE',  ( -357.5000000000000000, 20.00000000000000000, 185.0000000000000000 ) ) ;
#76 = DIRECTION ( 'NONE',  ( 0.000000000000000000, 0.000000000000000000, -1.000000000000000000 ) ) ;
#77 = CIRCLE ( 'NONE', #399, 44.99999999999998579 ) ;
#78 = CARTESIAN_POINT ( 'NONE',  ( -357.5000000000000000, 25.00000000000000000, 185.0000000000000000 ) ) ;
#79 = UNCERTAINTY_MEASURE_WITH_UNIT (LENGTH_MEASURE( 1.000000000000000082E-05 ), #335, 'distance_accuracy_value', 'NONE');
#80 = LINE ( 'NONE', #385, #322 ) ;
#81 = ORIENTED_EDGE ( 'NONE', *, *, #117, .F. ) ;
#82 = CARTESIAN_POINT ( 'NONE',  ( 0.000000000000000000, 0.000000000000000000, 0.000000000000000000 ) ) ;
#83 = LINE ( 'NONE', #204, #152 ) ;
#84 = EDGE_CURVE ( 'NONE', #398, #95, #318, .T. ) ;
#85 = ORIENTED_EDGE ( 'NONE', *, *, #117, .T. ) ;
#86 = CARTESIAN_POINT ( 'NONE',  ( 357.5000000000000000, 25.00000000000000000, 230.0000000000000000 ) ) ;
#87 = AXIS2_PLACEMENT_3D ( 'NONE', #383, #360, #296 ) ;
#88 = ORIENTED_EDGE ( 'NONE', *, *, #387, .F. ) ;
#89 = DIRECTION ( 'NONE',  ( 1.000000000000000000, 0.000000000000000000, 0.000000000000000000 ) ) ;
#90 =( NAMED_UNIT ( * ) PLANE_ANGLE_UNIT ( ) SI_UNIT ( $, .RADIAN. ) );
#91 = DIRECTION ( 'NONE',  ( 0.000000000000000000, -1.000000000000000000, 0.000000000000000000 ) ) ;
#92 = CARTESIAN_POINT ( 'NONE',  ( -357.5000000000000000, 25.00000000000000000, 185.0000000000000000 ) ) ;
#93 = DIRECTION ( 'NONE',  ( -1.000000000000000000, 0.000000000000000000, 0.000000000000000000 ) ) ;
#94 = ORIENTED_EDGE ( 'NONE', *, *, #143, .T. ) ;
#95 = VERTEX_POINT ( 'NONE', #167 ) ;
#96 = CIRCLE ( 'NONE', #112, 44.99999999999998579 ) ;
#97 = MECHANICAL_DESIGN_GEOMETRIC_PRESENTATION_REPRESENTATION (  '', ( #274 ), #333 ) ;
#98 = ORIENTED_EDGE ( 'NONE', *, *, #127, .F. ) ;
#99 = ADVANCED_FACE ( 'NONE', ( #266 ), #343, .T. ) ;
#100 = EDGE_LOOP ( 'NONE', ( #222, #281, #124, #67 ) ) ;
#101 = ORIENTED_EDGE ( 'NONE', *, *, #186, .F. ) ;
#102 = DIRECTION ( 'NONE',  ( 0.000000000000000000, -1.000000000000000000, 0.000000000000000000 ) ) ;
#103 = CONICAL_SURFACE ( 'NONE', #364, 40.00000000000000711, 0.7853981633974497223 ) ;
#104 = VECTOR ( 'NONE', #29, 1000.000000000000000 ) ;
#105 = VERTEX_POINT ( 'NONE', #203 ) ;
#106 = DIRECTION ( 'NONE',  ( 0.000000000000000000, 0.000000000000000000, -1.000000000000000000 ) ) ;
#107 = DIRECTION ( 'NONE',  ( 1.000000000000000000, 0.000000000000000000, 0.000000000000000000 ) ) ;
#108 = EDGE_CURVE ( 'NONE', #40, #249, #145, .T. ) ;
#109 = DIRECTION ( 'NONE',  ( 1.000000000000000000, 0.000000000000000000, 0.000000000000000000 ) ) ;
#110 = CARTESIAN_POINT ( 'NONE',  ( -402.5000000000000000, 25.00000000000000000, -230.0000000000000000 ) ) ;
#111 = DIRECTION ( 'NONE',  ( 0.000000000000000000, 0.000000000000000000, 1.000000000000000000 ) ) ;
#112 = AXIS2_PLACEMENT_3D ( 'NONE', #4, #102, #76 ) ;
#113 = DIRECTION ( 'NONE',  ( 0.000000000000000000, -1.000000000000000000, 0.000000000000000000 ) ) ;
#114 = FACE_OUTER_BOUND ( 'NONE', #36, .T. ) ;
#115 = CARTESIAN_POINT ( 'NONE',  ( -402.5000000000000000, 20.00000000000000000, 185.0000000000000000 ) ) ;
#116 = CARTESIAN_POINT ( 'NONE',  ( -357.5000000000000000, 25.00000000000000000, 225.0000000000000000 ) ) ;
#117 = EDGE_CURVE ( 'NONE', #342, #187, #83, .T. ) ;
#118 =( NAMED_UNIT ( * ) PLANE_ANGLE_UNIT ( ) SI_UNIT ( $, .RADIAN. ) );
#119 = CARTESIAN_POINT ( 'NONE',  ( 357.5000000000000000, 0.000000000000000000, 230.0000000000000000 ) ) ;
#120 = DIRECTION ( 'NONE',  ( 0.000000000000000000, 0.000000000000000000, 1.000000000000000000 ) ) ;
#121 = VECTOR ( 'NONE', #142, 1000.000000000000000 ) ;
#122 = EDGE_CURVE ( 'NONE', #372, #342, #273, .T. ) ;
#123 = ORIENTED_EDGE ( 'NONE', *, *, #359, .T. ) ;
#124 = ORIENTED_EDGE ( 'NONE', *, *, #371, .F. ) ;
#125 = PRODUCT_DEFINITION_CONTEXT ( 'detailed design', #153, 'design' ) ;
#126 = ORIENTED_EDGE ( 'NONE', *, *, #341, .T. ) ;
#127 = EDGE_CURVE ( 'NONE', #188, #40, #77, .T. ) ;
#128 = AXIS2_PLACEMENT_3D ( 'NONE', #180, #31, #154 ) ;
#129 =( GEOMETRIC_REPRESENTATION_CONTEXT ( 3 ) GLOBAL_UNCERTAINTY_ASSIGNED_CONTEXT ( ( #79 ) ) GLOBAL_UNIT_ASSIGNED_CONTEXT ( ( #335, #118, #211 ) ) REPRESENTATION_CONTEXT ( 'NONE', 'WORKASPACE' ) );
#130 = ORIENTED_EDGE ( 'NONE', *, *, #208, .T. ) ;
#131 = PLANE ( 'NONE',  #199 ) ;
#132 = CARTESIAN_POINT ( 'NONE',  ( -397.5000000000000000, 25.00000000000000000, 185.0000000000000000 ) ) ;
#133 = ORIENTED_EDGE ( 'NONE', *, *, #122, .F. ) ;
#134 = CARTESIAN_POINT ( 'NONE',  ( 0.000000000000000000, 25.00000000000000000, 225.0000000000000000 ) ) ;
#135 = VECTOR ( 'NONE', #120, 1000.000000000000000 ) ;
#136 = VECTOR ( 'NONE', #293, 1000.000000000000000 ) ;
#137 = CARTESIAN_POINT ( 'NONE',  ( 357.5000000000000000, 25.00000000000000000, 185.0000000000000000 ) ) ;
#138 = DIRECTION ( 'NONE',  ( -1.000000000000000000, 0.000000000000000000, 0.000000000000000000 ) ) ;
#139 = DIRECTION ( 'NONE',  ( 0.000000000000000000, 0.000000000000000000, 1.000000000000000000 ) ) ;
#140 = CARTESIAN_POINT ( 'NONE',  ( 397.5000000000000000, 25.00000000000000000, 185.0000000000000000 ) ) ;
#141 = PLANE ( 'NONE',  #243 ) ;
#142 = DIRECTION ( 'NONE',  ( 1.000000000000000000, 0.000000000000000000, 0.000000000000000000 ) ) ;
#143 = EDGE_CURVE ( 'NONE', #311, #372, #175, .T. ) ;
#144 = AXIS2_PLACEMENT_3D ( 'NONE', #78, #233, #174 ) ;
#145 = LINE ( 'NONE', #321, #156 ) ;
#146 = COLOUR_RGB ( '',0.7921568627450980005, 0.8196078431372548767, 0.9333333333333333481 ) ;
#147 = VERTEX_POINT ( 'NONE', #51 ) ;
#148 = CARTESIAN_POINT ( 'NONE',  ( 402.5000000000000000, 0.000000000000000000, -230.0000000000000000 ) ) ;
#149 = DIRECTION ( 'NONE',  ( 0.000000000000000000, 1.000000000000000000, 0.000000000000000000 ) ) ;
#150 = ADVANCED_FACE ( 'NONE', ( #292 ), #19, .T. ) ;
#151 = DIRECTION ( 'NONE',  ( 0.000000000000000000, 0.000000000000000000, 1.000000000000000000 ) ) ;
#152 = VECTOR ( 'NONE', #326, 1000.000000000000000 ) ;
#153 = APPLICATION_CONTEXT ( 'automotive_design' ) ;
#154 = DIRECTION ( 'NONE',  ( 0.000000000000000000, -0.7071067811865475727, 0.7071067811865475727 ) ) ;
#155 = ADVANCED_FACE ( 'NONE', ( #23 ), #330, .F. ) ;
#156 = VECTOR ( 'NONE', #354, 1000.000000000000114 ) ;
#157 = ORIENTED_EDGE ( 'NONE', *, *, #56, .F. ) ;
#158 = FILL_AREA_STYLE ('',( #250 ) ) ;
#159 = ORIENTED_EDGE ( 'NONE', *, *, #371, .T. ) ;
#160 = ORIENTED_EDGE ( 'NONE', *, *, #236, .F. ) ;
#161 = PRESENTATION_STYLE_ASSIGNMENT (( #221 ) ) ;
#162 = EDGE_LOOP ( 'NONE', ( #220, #393, #312, #189 ) ) ;
#163 = FACE_OUTER_BOUND ( 'NONE', #244, .T. ) ;
#164 = ORIENTED_EDGE ( 'NONE', *, *, #84, .F. ) ;
#165 = DIRECTION ( 'NONE',  ( 0.000000000000000000, 0.000000000000000000, -1.000000000000000000 ) ) ;
#166 = EDGE_CURVE ( 'NONE', #249, #379, #59, .T. ) ;
#167 = CARTESIAN_POINT ( 'NONE',  ( -397.5000000000000000, 25.00000000000000000, -230.0000000000000000 ) ) ;
#168 = CARTESIAN_POINT ( 'NONE',  ( -357.5000000000000000, 0.000000000000000000, 230.0000000000000000 ) ) ;
#169 = VECTOR ( 'NONE', #49, 1000.000000000000000 ) ;
#170 = DIRECTION ( 'NONE',  ( 0.000000000000000000, -1.000000000000000000, 0.000000000000000000 ) ) ;
#171 = DIRECTION ( 'NONE',  ( 0.000000000000000000, 0.7071067811865474617, -0.7071067811865474617 ) ) ;
#172 = LINE ( 'NONE', #324, #232 ) ;
#173 = DIRECTION ( 'NONE',  ( -0.7071067811865474617, 0.7071067811865474617, 0.000000000000000000 ) ) ;
#174 = DIRECTION ( 'NONE',  ( 0.000000000000000000, 0.000000000000000000, -1.000000000000000000 ) ) ;
#175 = LINE ( 'NONE', #72, #190 ) ;
#176 = VERTEX_POINT ( 'NONE', #119 ) ;
#177 = EDGE_CURVE ( 'NONE', #188, #340, #33, .T. ) ;
#178 = CARTESIAN_POINT ( 'NONE',  ( -397.5000000000000000, 25.00000000000000000, 0.000000000000000000 ) ) ;
#179 =( NAMED_UNIT ( * ) SI_UNIT ( $, .STERADIAN. ) SOLID_ANGLE_UNIT ( ) );
#180 = CARTESIAN_POINT ( 'NONE',  ( 0.000000000000000000, 25.00000000000000000, 225.0000000000000000 ) ) ;
#181 = MECHANICAL_DESIGN_GEOMETRIC_PRESENTATION_REPRESENTATION (  '', ( #370 ), #9 ) ;
#182 = ADVANCED_FACE ( 'NONE', ( #339 ), #334, .F. ) ;
#183 = EDGE_LOOP ( 'NONE', ( #346, #10, #374, #8, #35, #130 ) ) ;
#184 = PRESENTATION_LAYER_ASSIGNMENT (  '', '', ( #370 ) ) ;
#185 = VECTOR ( 'NONE', #149, 1000.000000000000000 ) ;
#186 = EDGE_CURVE ( 'NONE', #95, #249, #403, .T. ) ;
#187 = VERTEX_POINT ( 'NONE', #367 ) ;
#188 = VERTEX_POINT ( 'NONE', #303 ) ;
#189 = ORIENTED_EDGE ( 'NONE', *, *, #352, .T. ) ;
#190 = VECTOR ( 'NONE', #21, 1000.000000000000114 ) ;
#191 = FACE_OUTER_BOUND ( 'NONE', #270, .T. ) ;
#192 = ORIENTED_EDGE ( 'NONE', *, *, #64, .F. ) ;
#193 = EDGE_CURVE ( 'NONE', #247, #311, #264, .T. ) ;
#194 = LINE ( 'NONE', #317, #314 ) ;
#195 = DIRECTION ( 'NONE',  ( 0.000000000000000000, 0.000000000000000000, -1.000000000000000000 ) ) ;
#196 = DIRECTION ( 'NONE',  ( 0.7071067811865474617, -0.7071067811865474617, 0.000000000000000000 ) ) ;
#197 = CARTESIAN_POINT ( 'NONE',  ( -397.5000000000000000, 25.00000000000000000, 0.000000000000000000 ) ) ;
#198 = LINE ( 'NONE', #47, #136 ) ;
#199 = AXIS2_PLACEMENT_3D ( 'NONE', #197, #262, #195 ) ;
#200 = ADVANCED_FACE ( 'NONE', ( #242 ), #337, .F. ) ;
#201 = DIRECTION ( 'NONE',  ( 0.000000000000000000, 0.000000000000000000, -1.000000000000000000 ) ) ;
#202 = CARTESIAN_POINT ( 'NONE',  ( 0.000000000000000000, 25.00000000000000000, 0.000000000000000000 ) ) ;
#203 = CARTESIAN_POINT ( 'NONE',  ( -402.5000000000000000, 0.000000000000000000, -230.0000000000000000 ) ) ;
#204 = CARTESIAN_POINT ( 'NONE',  ( 397.5000000000000000, 25.00000000000000000, 0.000000000000000000 ) ) ;
#205 = DIRECTION ( 'NONE',  ( 0.000000000000000000, 0.000000000000000000, -1.000000000000000000 ) ) ;
#206 = AXIS2_PLACEMENT_3D ( 'NONE', #388, #357, #260 ) ;
#207 = DIRECTION ( 'NONE',  ( 0.000000000000000000, 0.000000000000000000, 1.000000000000000000 ) ) ;
#208 = EDGE_CURVE ( 'NONE', #26, #105, #277, .T. ) ;
#209 = DIRECTION ( 'NONE',  ( 0.000000000000000000, -1.000000000000000000, 0.000000000000000000 ) ) ;
#210 = DIRECTION ( 'NONE',  ( 0.000000000000000000, 0.000000000000000000, -1.000000000000000000 ) ) ;
#211 =( NAMED_UNIT ( * ) SI_UNIT ( $, .STERADIAN. ) SOLID_ANGLE_UNIT ( ) );
#212 = CIRCLE ( 'NONE', #46, 44.99999999999998579 ) ;
#213 = MANIFOLD_SOLID_BREP ( 'NONE', #38 ) ;
#214 = ORIENTED_EDGE ( 'NONE', *, *, #336, .F. ) ;
#215 = EDGE_CURVE ( 'NONE', #340, #147, #96, .T. ) ;
#216 = VERTEX_POINT ( 'NONE', #319 ) ;
#217 = VECTOR ( 'NONE', #93, 1000.000000000000000 ) ;
#218 = PRESENTATION_LAYER_ASSIGNMENT (  '', '', ( #274 ) ) ;
#219 = ORIENTED_EDGE ( 'NONE', *, *, #352, .F. ) ;
#220 = ORIENTED_EDGE ( 'NONE', *, *, #56, .T. ) ;
#221 = SURFACE_STYLE_USAGE ( .BOTH. , #63 ) ;
#222 = ORIENTED_EDGE ( 'NONE', *, *, #27, .F. ) ;
#223 = PRODUCT_DEFINITION ( 'UNKNOWN', '', #1, #125 ) ;
#224 = AXIS2_PLACEMENT_3D ( 'NONE', #395, #25, #201 ) ;
#225 = DIRECTION ( 'NONE',  ( 0.000000000000000000, -1.000000000000000000, 0.000000000000000000 ) ) ;
#226 = DIRECTION ( 'NONE',  ( 0.000000000000000000, 0.000000000000000000, -1.000000000000000000 ) ) ;
#227 = CARTESIAN_POINT ( 'NONE',  ( 397.5000000000000000, 25.00000000000000000, -230.0000000000000000 ) ) ;
#228 = DIRECTION ( 'NONE',  ( 0.000000000000000000, 0.000000000000000000, -1.000000000000000000 ) ) ;
#229 = CARTESIAN_POINT ( 'NONE',  ( -357.5000000000000000, 20.00000000000000000, 230.0000000000000000 ) ) ;
#230 = DIRECTION ( 'NONE',  ( 0.7071067811865474617, 0.7071067811865474617, 0.000000000000000000 ) ) ;
#231 = CARTESIAN_POINT ( 'NONE',  ( 357.5000000000000000, 20.00000000000000000, 230.0000000000000000 ) ) ;
#232 = VECTOR ( 'NONE', #45, 1000.000000000000000 ) ;
#233 = DIRECTION ( 'NONE',  ( 0.000000000000000000, -1.000000000000000000, 0.000000000000000000 ) ) ;
#234 = CARTESIAN_POINT ( 'NONE',  ( 402.5000000000000000, 0.000000000000000000, 185.0000000000000000 ) ) ;
#235 = PRODUCT_CONTEXT ( 'NONE', #28, 'mechanical' ) ;
#236 = EDGE_CURVE ( 'NONE', #188, #379, #347, .T. ) ;
#237 =( LENGTH_UNIT ( ) NAMED_UNIT ( * ) SI_UNIT ( .MILLI., .METRE. ) );
#238 = ORIENTED_EDGE ( 'NONE', *, *, #27, .T. ) ;
#239 = SURFACE_STYLE_FILL_AREA ( #329 ) ;
#240 = DIRECTION ( 'NONE',  ( 0.000000000000000000, 1.000000000000000000, 0.000000000000000000 ) ) ;
#241 = EDGE_CURVE ( 'NONE', #340, #176, #315, .T. ) ;
#242 = FACE_OUTER_BOUND ( 'NONE', #309, .T. ) ;
#243 = AXIS2_PLACEMENT_3D ( 'NONE', #110, #139, #107 ) ;
#244 = EDGE_LOOP ( 'NONE', ( #65, #286, #2, #282, #381, #85 ) ) ;
#245 = ORIENTED_EDGE ( 'NONE', *, *, #193, .F. ) ;
#246 = ADVANCED_FACE ( 'NONE', ( #163 ), #12, .F. ) ;
#247 = VERTEX_POINT ( 'NONE', #252 ) ;
#248 = AXIS2_PLACEMENT_3D ( 'NONE', #392, #300, #207 ) ;
#249 = VERTEX_POINT ( 'NONE', #132 ) ;
#250 = FILL_AREA_STYLE_COLOUR ( '', #55 ) ;
#251 = ORIENTED_EDGE ( 'NONE', *, *, #359, .F. ) ;
#252 = CARTESIAN_POINT ( 'NONE',  ( 402.5000000000000000, 20.00000000000000000, 185.0000000000000000 ) ) ;
#253 = UNCERTAINTY_MEASURE_WITH_UNIT (LENGTH_MEASURE( 1.000000000000000082E-05 ), #373, 'distance_accuracy_value', 'NONE');
#254 = EDGE_LOOP ( 'NONE', ( #164, #307, #283, #101 ) ) ;
#255 = VECTOR ( 'NONE', #209, 1000.000000000000000 ) ;
#256 = PLANE ( 'NONE',  #17 ) ;
#257 = FACE_OUTER_BOUND ( 'NONE', #61, .T. ) ;
#258 = EDGE_CURVE ( 'NONE', #398, #105, #41, .T. ) ;
#259 = CARTESIAN_POINT ( 'NONE',  ( -402.5000000000000000, 20.00000000000000000, 230.0000000000000000 ) ) ;
#260 = DIRECTION ( 'NONE',  ( 0.000000000000000000, 0.000000000000000000, -1.000000000000000000 ) ) ;
#261 = LINE ( 'NONE', #386, #285 ) ;
#262 = DIRECTION ( 'NONE',  ( 0.7071067811865475727, -0.7071067811865475727, 0.000000000000000000 ) ) ;
#263 =( NAMED_UNIT ( * ) SI_UNIT ( $, .STERADIAN. ) SOLID_ANGLE_UNIT ( ) );
#264 = CIRCLE ( 'NONE', #304, 44.99999999999998579 ) ;
#265 = VECTOR ( 'NONE', #196, 1000.000000000000114 ) ;
#266 = FACE_OUTER_BOUND ( 'NONE', #272, .T. ) ;
#267 = CARTESIAN_POINT ( 'NONE',  ( 357.5000000000000000, 25.00000000000000000, 225.0000000000000000 ) ) ;
#268 = EDGE_CURVE ( 'NONE', #52, #176, #212, .T. ) ;
#269 = CARTESIAN_POINT ( 'NONE',  ( -397.5000000000000000, 25.00000000000000000, -230.0000000000000000 ) ) ;
#270 = EDGE_LOOP ( 'NONE', ( #159, #39, #301, #378 ) ) ;
#271 = LINE ( 'NONE', #86, #185 ) ;
#272 = EDGE_LOOP ( 'NONE', ( #123, #133, #5, #245 ) ) ;
#273 = CIRCLE ( 'NONE', #206, 40.00000000000000711 ) ;
#274 = STYLED_ITEM ( 'NONE', ( #60 ), #3 ) ;
#275 = CARTESIAN_POINT ( 'NONE',  ( -357.5000000000000000, 25.00000000000000000, 230.0000000000000000 ) ) ;
#276 = ADVANCED_FACE ( 'NONE', ( #350 ), #103, .T. ) ;
#277 = LINE ( 'NONE', #369, #217 ) ;
#278 = DIRECTION ( 'NONE',  ( 0.000000000000000000, 0.000000000000000000, -1.000000000000000000 ) ) ;
#279 = ORIENTED_EDGE ( 'NONE', *, *, #108, .F. ) ;
#280 = EDGE_CURVE ( 'NONE', #40, #398, #194, .T. ) ;
#281 = ORIENTED_EDGE ( 'NONE', *, *, #193, .T. ) ;
#282 = ORIENTED_EDGE ( 'NONE', *, *, #320, .T. ) ;
#283 = ORIENTED_EDGE ( 'NONE', *, *, #108, .T. ) ;
#284 = AXIS2_PLACEMENT_3D ( 'NONE', #58, #363, #240 ) ;
#285 = VECTOR ( 'NONE', #111, 1000.000000000000000 ) ;
#286 = ORIENTED_EDGE ( 'NONE', *, *, #186, .T. ) ;
#287 = CARTESIAN_POINT ( 'NONE',  ( -402.5000000000000000, 0.000000000000000000, 230.0000000000000000 ) ) ;
#288 = ORIENTED_EDGE ( 'NONE', *, *, #208, .F. ) ;
#289 = CARTESIAN_POINT ( 'NONE',  ( -402.5000000000000000, 25.00000000000000000, 230.0000000000000000 ) ) ;
#290 = FACE_OUTER_BOUND ( 'NONE', #183, .T. ) ;
#291 = VECTOR ( 'NONE', #225, 1000.000000000000000 ) ;
#292 = FACE_OUTER_BOUND ( 'NONE', #37, .T. ) ;
#293 = DIRECTION ( 'NONE',  ( 0.000000000000000000, 0.000000000000000000, 1.000000000000000000 ) ) ;
#294 = FACE_OUTER_BOUND ( 'NONE', #100, .T. ) ;
#295 = DIRECTION ( 'NONE',  ( 0.000000000000000000, -1.000000000000000000, 0.000000000000000000 ) ) ;
#296 = DIRECTION ( 'NONE',  ( -0.7071067811865475727, 0.7071067811865475727, 0.000000000000000000 ) ) ;
#297 = ORIENTED_EDGE ( 'NONE', *, *, #177, .F. ) ;
#298 = ADVANCED_FACE ( 'NONE', ( #191 ), #43, .F. ) ;
#299 = VECTOR ( 'NONE', #138, 1000.000000000000000 ) ;
#300 = DIRECTION ( 'NONE',  ( -1.000000000000000000, 0.000000000000000000, 0.000000000000000000 ) ) ;
#301 = ORIENTED_EDGE ( 'NONE', *, *, #177, .T. ) ;
#302 = CARTESIAN_POINT ( 'NONE',  ( -402.5000000000000000, 20.00000000000000000, -230.0000000000000000 ) ) ;
#303 = CARTESIAN_POINT ( 'NONE',  ( -357.5000000000000000, 20.00000000000000000, 230.0000000000000000 ) ) ;
#304 = AXIS2_PLACEMENT_3D ( 'NONE', #400, #91, #210 ) ;
#305 = AXIS2_PLACEMENT_3D ( 'NONE', #82, #151, #89 ) ;
#306 = LINE ( 'NONE', #396, #310 ) ;
#307 = ORIENTED_EDGE ( 'NONE', *, *, #280, .F. ) ;
#308 = EDGE_CURVE ( 'NONE', #311, #188, #20, .T. ) ;
#309 = EDGE_LOOP ( 'NONE', ( #94, #69, #160, #345 ) ) ;
#310 = VECTOR ( 'NONE', #205, 1000.000000000000000 ) ;
#311 = VERTEX_POINT ( 'NONE', #231 ) ;
#312 = ORIENTED_EDGE ( 'NONE', *, *, #258, .T. ) ;
#313 = ORIENTED_EDGE ( 'NONE', *, *, #387, .T. ) ;
#314 = VECTOR ( 'NONE', #165, 1000.000000000000000 ) ;
#315 = LINE ( 'NONE', #287, #338 ) ;
#316 = ORIENTED_EDGE ( 'NONE', *, *, #215, .T. ) ;
#317 = CARTESIAN_POINT ( 'NONE',  ( -402.5000000000000000, 20.00000000000000000, 230.0000000000000000 ) ) ;
#318 = LINE ( 'NONE', #269, #375 ) ;
#319 = CARTESIAN_POINT ( 'NONE',  ( 402.5000000000000000, 20.00000000000000000, -230.0000000000000000 ) ) ;
#320 = EDGE_CURVE ( 'NONE', #379, #372, #22, .T. ) ;
#321 = CARTESIAN_POINT ( 'NONE',  ( -402.5000000000000000, 20.00000000000000000, 185.0000000000000000 ) ) ;
#322 = VECTOR ( 'NONE', #113, 1000.000000000000000 ) ;
#323 = DIRECTION ( 'NONE',  ( 0.000000000000000000, 0.000000000000000000, -1.000000000000000000 ) ) ;
#324 = CARTESIAN_POINT ( 'NONE',  ( -402.5000000000000000, 25.00000000000000000, 185.0000000000000000 ) ) ;
#325 = DIRECTION ( 'NONE',  ( 0.000000000000000000, 0.000000000000000000, -1.000000000000000000 ) ) ;
#326 = DIRECTION ( 'NONE',  ( 0.000000000000000000, 0.000000000000000000, -1.000000000000000000 ) ) ;
#327 = ADVANCED_FACE ( 'NONE', ( #114 ), #256, .T. ) ;
#328 = ORIENTED_EDGE ( 'NONE', *, *, #215, .F. ) ;
#329 = FILL_AREA_STYLE ('',( #401 ) ) ;
#330 = PLANE ( 'NONE',  #248 ) ;
#331 = ORIENTED_EDGE ( 'NONE', *, *, #241, .F. ) ;
#332 = CARTESIAN_POINT ( 'NONE',  ( -402.5000000000000000, 25.00000000000000000, -230.0000000000000000 ) ) ;
#333 =( GEOMETRIC_REPRESENTATION_CONTEXT ( 3 ) GLOBAL_UNCERTAINTY_ASSIGNED_CONTEXT ( ( #356 ) ) GLOBAL_UNIT_ASSIGNED_CONTEXT ( ( #237, #90, #179 ) ) REPRESENTATION_CONTEXT ( 'NONE', 'WORKASPACE' ) );
#334 = PLANE ( 'NONE',  #284 ) ;
#335 =( LENGTH_UNIT ( ) NAMED_UNIT ( * ) SI_UNIT ( .MILLI., .METRE. ) );
#336 = EDGE_CURVE ( 'NONE', #187, #216, #18, .T. ) ;
#337 = PLANE ( 'NONE',  #128 ) ;
#338 = VECTOR ( 'NONE', #109, 1000.000000000000000 ) ;
#339 = FACE_OUTER_BOUND ( 'NONE', #162, .T. ) ;
#340 = VERTEX_POINT ( 'NONE', #168 ) ;
#341 = EDGE_CURVE ( 'NONE', #216, #247, #198, .T. ) ;
#342 = VERTEX_POINT ( 'NONE', #140 ) ;
#343 = CONICAL_SURFACE ( 'NONE', #30, 40.00000000000000711, 0.7853981633974497223 ) ;
#344 = EDGE_LOOP ( 'NONE', ( #192, #126, #238, #313 ) ) ;
#345 = ORIENTED_EDGE ( 'NONE', *, *, #308, .F. ) ;
#346 = ORIENTED_EDGE ( 'NONE', *, *, #258, .F. ) ;
#347 = LINE ( 'NONE', #229, #34 ) ;
#348 = ORIENTED_EDGE ( 'NONE', *, *, #268, .T. ) ;
#349 = AXIS2_PLACEMENT_3D ( 'NONE', #202, #391, #325 ) ;
#350 = FACE_OUTER_BOUND ( 'NONE', #62, .T. ) ;
#351 = PLANE ( 'NONE',  #87 ) ;
#352 = EDGE_CURVE ( 'NONE', #105, #147, #261, .T. ) ;
#353 = DIRECTION ( 'NONE',  ( 0.000000000000000000, -1.000000000000000000, 0.000000000000000000 ) ) ;
#354 = DIRECTION ( 'NONE',  ( 0.7071067811865474617, 0.7071067811865474617, 0.000000000000000000 ) ) ;
#355 = DIRECTION ( 'NONE',  ( 0.000000000000000000, -1.000000000000000000, 0.000000000000000000 ) ) ;
#356 = UNCERTAINTY_MEASURE_WITH_UNIT (LENGTH_MEASURE( 1.000000000000000082E-05 ), #237, 'distance_accuracy_value', 'NONE');
#357 = DIRECTION ( 'NONE',  ( 0.000000000000000000, 1.000000000000000000, 0.000000000000000000 ) ) ;
#358 = LINE ( 'NONE', #50, #365 ) ;
#359 = EDGE_CURVE ( 'NONE', #247, #342, #358, .T. ) ;
#360 = DIRECTION ( 'NONE',  ( -0.7071067811865475727, -0.7071067811865475727, 0.000000000000000000 ) ) ;
#361 = SHAPE_DEFINITION_REPRESENTATION ( #48, #3 ) ;
#362 = CYLINDRICAL_SURFACE ( 'NONE', #224, 44.99999999999998579 ) ;
#363 = DIRECTION ( 'NONE',  ( 1.000000000000000000, 0.000000000000000000, 0.000000000000000000 ) ) ;
#364 = AXIS2_PLACEMENT_3D ( 'NONE', #71, #353, #323 ) ;
#365 = VECTOR ( 'NONE', #173, 1000.000000000000114 ) ;
#366 = DIRECTION ( 'NONE',  ( 0.000000000000000000, 1.000000000000000000, 0.000000000000000000 ) ) ;
#367 = CARTESIAN_POINT ( 'NONE',  ( 397.5000000000000000, 25.00000000000000000, -230.0000000000000000 ) ) ;
#368 = LINE ( 'NONE', #332, #104 ) ;
#369 = CARTESIAN_POINT ( 'NONE',  ( -402.5000000000000000, 0.000000000000000000, -230.0000000000000000 ) ) ;
#370 = STYLED_ITEM ( 'NONE', ( #161 ), #213 ) ;
#371 = EDGE_CURVE ( 'NONE', #176, #311, #271, .T. ) ;
#372 = VERTEX_POINT ( 'NONE', #267 ) ;
#373 =( LENGTH_UNIT ( ) NAMED_UNIT ( * ) SI_UNIT ( .MILLI., .METRE. ) );
#374 = ORIENTED_EDGE ( 'NONE', *, *, #397, .F. ) ;
#375 = VECTOR ( 'NONE', #230, 1000.000000000000114 ) ;
#376 = ORIENTED_EDGE ( 'NONE', *, *, #127, .T. ) ;
#377 =( NAMED_UNIT ( * ) PLANE_ANGLE_UNIT ( ) SI_UNIT ( $, .RADIAN. ) );
#378 = ORIENTED_EDGE ( 'NONE', *, *, #241, .T. ) ;
#379 = VERTEX_POINT ( 'NONE', #116 ) ;
#380 = CARTESIAN_POINT ( 'NONE',  ( -402.5000000000000000, 25.00000000000000000, -230.0000000000000000 ) ) ;
#381 = ORIENTED_EDGE ( 'NONE', *, *, #122, .T. ) ;
#382 = CARTESIAN_POINT ( 'NONE',  ( 0.000000000000000000, 0.000000000000000000, 0.000000000000000000 ) ) ;
#383 = CARTESIAN_POINT ( 'NONE',  ( 397.5000000000000000, 25.00000000000000000, 0.000000000000000000 ) ) ;
#384 = DIRECTION ( 'NONE',  ( 0.000000000000000000, 0.000000000000000000, -1.000000000000000000 ) ) ;
#385 = CARTESIAN_POINT ( 'NONE',  ( 402.5000000000000000, 25.00000000000000000, 185.0000000000000000 ) ) ;
#386 = CARTESIAN_POINT ( 'NONE',  ( -402.5000000000000000, 0.000000000000000000, 230.0000000000000000 ) ) ;
#387 = EDGE_CURVE ( 'NONE', #52, #26, #306, .T. ) ;
#388 = CARTESIAN_POINT ( 'NONE',  ( 357.5000000000000000, 25.00000000000000000, 185.0000000000000000 ) ) ;
#389 = AXIS2_PLACEMENT_3D ( 'NONE', #92, #366, #278 ) ;
#390 = ORIENTED_EDGE ( 'NONE', *, *, #236, .T. ) ;
#391 = DIRECTION ( 'NONE',  ( 0.000000000000000000, -1.000000000000000000, 0.000000000000000000 ) ) ;
#392 = CARTESIAN_POINT ( 'NONE',  ( 402.5000000000000000, 25.00000000000000000, 230.0000000000000000 ) ) ;
#393 = ORIENTED_EDGE ( 'NONE', *, *, #280, .T. ) ;
#394 = SURFACE_SIDE_STYLE ('',( #239 ) ) ;
#395 = CARTESIAN_POINT ( 'NONE',  ( 357.5000000000000000, 25.00000000000000000, 185.0000000000000000 ) ) ;
#396 = CARTESIAN_POINT ( 'NONE',  ( 402.5000000000000000, 0.000000000000000000, 230.0000000000000000 ) ) ;
#397 = EDGE_CURVE ( 'NONE', #187, #95, #368, .T. ) ;
#398 = VERTEX_POINT ( 'NONE', #302 ) ;
#399 = AXIS2_PLACEMENT_3D ( 'NONE', #75, #170, #226 ) ;
#400 = CARTESIAN_POINT ( 'NONE',  ( 357.5000000000000000, 20.00000000000000000, 185.0000000000000000 ) ) ;
#401 = FILL_AREA_STYLE_COLOUR ( '', #146 ) ;
#402 = APPLICATION_PROTOCOL_DEFINITION ( 'draft international standard', 'automotive_design', 1998, #28 ) ;
#403 = LINE ( 'NONE', #178, #135 ) ;
ENDSEC;
END-ISO-10303-21;
